Tabulatury

Moderator: Kred

Re: Tabulatury

Postprzez petlica » 10 Mar 2019, 11:32

Kod: Zaznacz wszystko
Opty Pesy

    Intro
C#|---------------------------|-------------------------|
G#|---------------------------|-------------------------|
E |---------------------------|-------------------------|
H |-8/9-----------------------|-8/9---------------------|
F#|-6/7-----------------------|-6/7---------------------|
H |---------------------------|-------------------------|

C#|---------------------------|-------------------------|
G#|---------------------------|-------------------------|
E |---------------------------|-------------------------|
H |-8/9----------8/9----------|-8/9---------------------|
F#|-6/7----------8/9----------|-6/7---9/10---7/9--9/10--|
H |---------------------------|-------7/8----5/7--7/8---|

   Riff A
C#|-------------------------------------|-------------------------|
G#|-------------------------------------|-------------------------|
E |-------------------------------------|-------------------------|
H |-8/9---------------------------------|-------------------------|
F#|-6/7---9---9/10---9---9/10---9---7---|-10----/-----/------/----|
H |-----0-7-0-7/8--0-7-0-7/8--0-7-0-5-0-|--8--/-----/-----/-------|
       pm  pm     pm  pm     pm  pm  pm


C#|-------------------------------------|-------------------------|
G#|-------------------------------------|-------------------------|
E |-------------------------------------|-------------------------|
H |-8/9---------------------------------|-------------------------|
F#|-6/7---9---9/10---9---9/10---9---7---|--5----/----5-------/----|
H |-----0-7-0-7/8--0-7-0-7/8--0-7-0-5-0-|--3--/------2----/-------|
       pm  pm     pm  pm     pm  pm  pm

C#|-------------------------------------|-----------------------------------|
G#|-------------------------------------|-----------------------------------|
E |-------------------------------------|-----------------------------------|
H |-8/9---------------------------------|-----------------------------9-9-9-|
F#|-6/7---9---9/10---9---9/10---9---7---|---------7-7-7-7-10-10-10-10-------|
H |-----0-7-0-7/8--0-7-0-7/8--0-7-0-5-0-|-8-8-8-8---------------------------|
       pm  pm     pm  pm     pm  pm  pm

C#|-------------------------------------|-------------------------|
G#|-------------------------------------|-------------------------|
E |-------------------------------------|-------------------------|
H |-8/9---------------------------------|-------------------------|
F#|-6/7---9---9/10---9---9/10---9---7---|--5----/----5-------/----|
H |-----0-7-0-7/8--0-7-0-7/8--0-7-0-5-0-|--3--/------2----/-------|
       pm  pm     pm  pm     pm  pm  pm

   Riff B                             x2
C#|-------------------|-----------------|
G#|-------------------|-----------------|
E |-------------------|-----------------|
H |-8/9---------------|-----------------|
F#|-6/7---------------|-----------------|
H |-----0-0-0-0-0-0-0-|-0-0-0-0-0-0-0-0-|


C#|------------------|-----------------|
G#|------------------|-----------------|
E |------------------|-----------------|
H |-8/9--------------|-----------------|
F#|-6/7-----9/10-----|-7/9-----9/10----|
H |-----0-0-7/8--0-0-|-5/7-0-0-7/8-0-0-|


   Riff C / Verse                     x2
C#|-------------------|-----------------|
G#|-------------------|-----------------|
E |-------------------|-----------------|
H |-8/9---------------|-----------------|
F#|-6/7---------------|-----------------|
H |-----0-0-0-0-0-0-0-|-0-0-0-0-0-0-0-0-|


C#|---------------------------------|------------------|
G#|---------------------------------|------------------|
E |---------------------------------|------------------|
H |-8/9-----9-------8/9-----9-------|------------------|
F#|-6/7-----7-------6/7-----7-------|-10----/--10----/-|
H |-----0-0---0-0-0-----0-0---0-0-0-|--8--/-----7--/---|

   Ref
C#|------------------0------|-------------------------|
G#|------------------0------|-------------------------|
E |------------------9------|-------------------------|
H |-----------------10------|-------------------------|
F#|-10----/-----/--------/--|--5----/----5-------/----|
H |--8--/-----/--------/----|--3--/------2----/-------|

petlica
 
Posty: 37
Rejestracja: 29 Sie 2012, 08:26

Re: Tabulatury

Postprzez Smok » 11 Mar 2019, 00:24

O. Dzięki, petlica!
Więc dokąd, dokąd ta wędrówka
Posmutniał król i zadął w róg
Przeciwnik straszy, pielgrzym idzie
A pyta zawsze Bóg
Awatar użytkownika
Smok
 
Posty: 5980
Rejestracja: 11 Maj 2011, 12:45
Miejscowość: Wschód

Re: Tabulatury

Postprzez Wichura » 11 Mar 2019, 22:42

O patrz ktoś szybciej to ogarnął i widzę, że parę rzeczy zrobił lepiej :D ale strój jakiś dziwny, bo chłopaki graja to w standard E i brakuje motywu na oktawach, który jest na solówce.
Wichura
 
Posty: 148
Rejestracja: 24 Lip 2013, 23:50

Re: Tabulatury

Postprzez tymson170 » 11 Mar 2019, 23:38

A solówkę dałby ktoś radę rozpracować? Myślę że warto też spróbować z solówkami z innych piosenek np. Księgowego bo nie widzialem zeby gdzies byly
tymson170
 
Posty: 1
Rejestracja: 04 Mar 2019, 21:41

Re: Tabulatury

Postprzez misiura » 15 Maj 2019, 13:31

Strój w OPTY PESY standard E. Fajny, prosty energetyczny riff. Idealnie do opty pesy pasuje intro z Battery Mety :) Ja już nie zaczynam grac tego kawałka inaczej ;)
przemek mam w dowodzie
Awatar użytkownika
misiura
 
Posty: 447
Rejestracja: 09 Lip 2015, 10:36
Miejscowość: Łódź

Re: Tabulatury

Postprzez nooken » 02 Paź 2020, 19:41

Nowa plyta juz oficjalnie to moze ruszy temat tabow. Mi udalo sie rozpracować ekoplan, cel i na czworakach. Jak znajdę chwilę to rozpisze i wrzucę tutaj. Fajnie jakby udało się rozpisać wszystkie kawalki jak przy pierwszych plytach ;)
Awatar użytkownika
nooken
 
Posty: 922
Rejestracja: 06 Cze 2011, 23:42
Miejscowość: Siedlce

Re: Tabulatury

Postprzez miehoo » 04 Paź 2020, 12:32

to ja czekam, tyle mogę zrobić.
Awatar użytkownika
miehoo
 
Posty: 8
Rejestracja: 10 Lut 2013, 12:04
Miejscowość: KRK

Re: Tabulatury

Postprzez nooken » 07 Paź 2020, 19:43

Na szybko i chaotycznie EKOPLAN, ale mam nadzieję, że jakoś da się ogarnąć

Kod: Zaznacz wszystko
ekoplan

Intro/zwrotka
E-10-10-10--8----7----5-----------------------------3----1----5-----5-5-5--
H-12-12-12--10---8----6-----------------------------5----3----6-----6-6-6--
G-12-12-12--10---9----7-----------------------------5----3----7-----7-7-7--
D------------------------------------------------------------------------
A-----------------------------------------------------------------------
D-----------------------------------------------------------------------

E---------------------------------------------------------------
H---------------------------------------------------------------
G---------------------------------------------------------------
D---------------------------------------------------------------
A--------------------------------------------------10----------8-------0---
E--0-0-0-0-0-0-0-0-0-0-0-0-0-0-0-0-0-0-0-0-0-0-0-0-10-10-10-10-8-8-8-8-0-0---

Bricz
E--------------------------------------------------------------
H------------------------------10--------------------------------
G------------------------------12b--------------------------------
D-12--12-12-12-X--9--9-X-10------------------------------------
A-12--12-12-12-X--9--9-X-10------------------------------------
D-12--12-12-12-X--9--9-X-10------------------------------------


Refren
E----------------------------------------------------
H----------------------------------------------------
G----------------------------------------------------
D-2--2-0-2-5----2---2--2-2-5-2-0-2-------------------
A-2--2-0-2-5--0-2---2--2-2-5-2-0-2-------------------
D-2--2-0-2-5--0-2---2--2-2-5-2-0-2-0-----------------

Bricz 2
E--------------------------------------------------------------
H--------------------------------------------------------------
G--------------------------------------------------------------
D-12--12-12-12-X--9--9-X-10--10-10--xxxx----------------------------
A-12--12-12-12-X--9--9-X-10--10-10--xxxx---------------------------
D-12--12-12-12-X--9--9-X-10--10-10--xxxx---------------------------

outro
E---------------------------------------------------------------
H---------------------------------------------------------------
G---------------------------------------------------------------
D-14--14-14-14-12--14---9---9--12-12--12-11--9------------------
A---------------------------------------------------------------
D---------------------------------------------------------------


-- 07 Paź 2020, 17:46 --

Kod: Zaznacz wszystko
Na czworakach

Intro/zwrotka

E---------------------------------------------------------------
H---------------------------------------------------------------
G---------------------------------------------------------------
D-------------------------------------------------3-------------
A-----3h5-0------3h5-0-----------3h5-0------3h5-0---------------
E--0----------0--------3------0----------0----------------------

Refren
E----------------------------------------------------
H----------------------------------------------------
G----------------------------------------------------
D-5---7h8-7--5--3--0---------------------------------
A-5---7h8-7--5--3--0--------------------------------
D-5---7h8-7--5--3--0--------------------------------


-- 07 Paź 2020, 19:25 --

Kod: Zaznacz wszystko
Cel

Intro

E----------------------------------------------------------------------------------
H----------------------------------------------------------------------------------
G----------------------------------------------------------------------------------
D----------------------------------------------------------------------------------
A--12h14-14-14-14~---10h12-10-10h12-12~----14h15-15-15-15~--12h14-12-12h14-14~-----
E----------------------------------------------------------------------------------

zwrotka
E-----------------------------------
H----------------------------------
G----------------------------------
D-1-1-1-1-1-1-2-1-2-2-2-2-4-4-2-2--
A-2-2-2-2-2-2-3-2-3-3-3-3-5-5-3-3--
E-2-2-2-2-2-2-3-2-3-3-3-3-5-5-3-3--
  pm pm pm pm pm pm pm pm pm pm pm

E-----------------------------------
H----------------------------------
G----------------------------------
D-1-1-1-1-1-1-2-1-2-2-2-2-2-2-2-2--
A-2-2-2-2-2-2-3-2-3-3-3-3-3-3-3-3--
E-2-2-2-2-2-2-3-2-3-3-3-3-3-3-3-3--
  pm pm pm pm pm pm pm pm pm pm pm


Refren
E----------------------------------------------------
H----------------------------------------------------
G----------------------------------------------------
D-2---2-2-2-4----4-4-2-2-2-2-------------------------
A-2---2-2-2-5----5-5-3-3-3-3--------------------------
D-0---0-0-0-5----5-5-3-3-3-3--------------------------


-- 07 Paź 2020, 19:43 --

Kod: Zaznacz wszystko
matarapatytaparatam

zwrotka


E---------------------------------------------------------------
H---------------------------------------------------------------
G---------------------------------------------------------------
D-----9-11-9------5-7-5--------4-5-4-------10---------7---------
A---9-----------5------------0-----------8----8-----5---5-------
D-9----------9-5---------5-0-----------8----------5-------------
Awatar użytkownika
nooken
 
Posty: 922
Rejestracja: 06 Cze 2011, 23:42
Miejscowość: Siedlce

Re: Tabulatury

Postprzez Wichura » 11 Paź 2020, 03:54

Za wyjątkiem refrenu i solówki udało mi się rozpracować akordy i główny motyw Celu, ale strój to chyba B Standard albo Drop A, a nie E :D Mogę też za wyjątkiem solówki Jahnza ogarnąć Hołd.
Wichura
 
Posty: 148
Rejestracja: 24 Lip 2013, 23:50

Re: Tabulatury

Postprzez nooken » 11 Paź 2020, 10:53

Cel masz rozpisany wyzej w E standard
Awatar użytkownika
nooken
 
Posty: 922
Rejestracja: 06 Cze 2011, 23:42
Miejscowość: Siedlce

Re: Tabulatury

Postprzez Smok » 11 Paź 2020, 10:57

Nooken, spoko - śmiało rozpisuj te taby, dobrze Ci idzie.

Wichura - Cel jest na bank w "e", widać to na dvd, a nawet przez telefon Robert wspominał mi, że zaczyna się od podwyższonego (w sensie wyżej łapanego) - "E" - więc to rozpisanie wydaje się bardzo ok.
Ale śmiało - rozpisuj (może w B także zabrzmi)...
Więc dokąd, dokąd ta wędrówka
Posmutniał król i zadął w róg
Przeciwnik straszy, pielgrzym idzie
A pyta zawsze Bóg
Awatar użytkownika
Smok
 
Posty: 5980
Rejestracja: 11 Maj 2011, 12:45
Miejscowość: Wschód

Re: Tabulatury

Postprzez wenseboro96 » 11 Paź 2020, 22:10

Cel jest mylący, szczególnie w refrenie bo chłopaki nie grają tam klasycznie kwintami, ale kwartami. Też w refrenie mi się momentami wydawało jakby grali w Drop C(a przecie intro to było ewidentnie Standard E). Te kwarty na zwrotkach i refrenie są cholernie mylące. Ciekawa zagrywka
Awatar użytkownika
wenseboro96
 
Posty: 72
Rejestracja: 12 Paź 2014, 19:58

Re: Tabulatury

Postprzez nooken » 12 Paź 2020, 18:58

Kod: Zaznacz wszystko
progres
into
E--------------0----------------
H--------------0---------------
G--------------0----------------
D-----------------------------
A-7--8--5--2-------------------
E-5--6--3--0-------------------


E------------------------------------
H------------------------------------
G------------------------------------
D------------------------------------
A------------------------------------
E--0-0-10-0-10-9-0-9-0-9-8-0-7-0-7/5-

E------------------------------------
H------------------------------------
G------------------------------------
D------------------------------------
A------------------------------------
E--0-0-10-0-10-9-0-7-0-0-0-0-0-0-0-0-

zwrotka
E------------------------------
H------------------------------
G------------------------------
D------------------------------
A-4--4-4-4-4-4-4---------------
E-2--2-2-2-2-2-2--0-5-0-5-4-0-- x4

E------------------------------
H------------------------------
G------------------------------
D------------------------------
A-9--9-9-9-9-9-9---------------
E-7--7-7-7-7-7-7--0-10-0-10-9-0- x2

E------------------------------
H------------------------------
G------------------------------
D------------------------------
A-7--7-7-7-7-7-7---------------
E-5--5-5-5-5-5-5--0-10-0-10-9-0-

refren
E------------------------------------------------------------------------
H------------------------------------------------------------------------
G------------------------------------------------------------------------
D------------------------------------------------------------------------
A-----------------------------------------------------------12-12-12-12-12
E--0-0-15-0-15-14-0-12-0-0-15-0-15-14-0-12-0-0-15-0-15-14-0-10-10-10-10-10


-- 12 Paź 2020, 18:58 --

nooken napisał(a):Na szybko i chaotycznie EKOPLAN, ale mam nadzieję, że jakoś da się ogarnąć

Kod: Zaznacz wszystko
ekoplan

Intro/zwrotka
E-10-10-10--8----7----5-----------------------------3----1----5-----5-5-5--
H-12-12-12--10---8----6-----------------------------5----3----6-----6-6-6--
G-12-12-12--10---9----7-----------------------------5----3----7-----7-7-7--
D------------------------------------------------------------------------
A-----------------------------------------------------------------------
D-----------------------------------------------------------------------

E---------------------------------------------------------------
H---------------------------------------------------------------
G---------------------------------------------------------------
D---------------------------------------------------------------
A--------------------------------------------------10----------8-------0---
E--0-0-0-0-0-0-0-0-0-0-0-0-0-0-0-0-0-0-0-0-0-0-0-0-10-10-10-10-8-8-8-8-0-0---

Bricz
E--------------------------------------------------------------
H------------------------------10--------------------------------
G------------------------------12b--------------------------------
D-12--12-12-12-X--9--9-X-10------------------------------------
A-12--12-12-12-X--9--9-X-10------------------------------------
D-12--12-12-12-X--9--9-X-10------------------------------------


Refren
E----------------------------------------------------
H----------------------------------------------------
G----------------------------------------------------
D-2--2-0-2-5----2---2--2-2-5-2-0-2-------------------
A-2--2-0-2-5--0-2---2--2-2-5-2-0-2-------------------
D-2--2-0-2-5--0-2---2--2-2-5-2-0-2-0-----------------

Bricz 2
E--------------------------------------------------------------
H--------------------------------------------------------------
G--------------------------------------------------------------
D-12--12-12-12-X--9--9-X-10--10-10--xxxx----------------------------
A-12--12-12-12-X--9--9-X-10--10-10--xxxx---------------------------
D-12--12-12-12-X--9--9-X-10--10-10--xxxx---------------------------

outro
E---------------------------------------------------------------
H---------------------------------------------------------------
G---------------------------------------------------------------
D-14--14-14-14-12--14---9---9--12-12--12-11--9------------------
A---------------------------------------------------------------
D---------------------------------------------------------------


-- 07 Paź 2020, 17:46 --

Kod: Zaznacz wszystko
Na czworakach

Intro/zwrotka

E---------------------------------------------------------------
H---------------------------------------------------------------
G---------------------------------------------------------------
D-------------------------------------------------3-------------
A-----3h5-0------3h5-0-----------3h5-0------3h5-0---------------
E--0----------0--------3------0----------0----------------------

Refren
E----------------------------------------------------
H----------------------------------------------------
G----------------------------------------------------
D-5---7h8-7--5--3--0---------------------------------
A-5---7h8-7--5--3--0--------------------------------
D-5---7h8-7--5--3--0--------------------------------


-- 07 Paź 2020, 19:25 --

Kod: Zaznacz wszystko
Cel

Intro

E----------------------------------------------------------------------------------
H----------------------------------------------------------------------------------
G----------------------------------------------------------------------------------
D----------------------------------------------------------------------------------
A--12h14-14-14-14~---10h12-10-10h12-12~----14h15-15-15-15~--12h14-12-12h14-14~-----
E----------------------------------------------------------------------------------

zwrotka
E-----------------------------------
H----------------------------------
G----------------------------------
D-1-1-1-1-1-1-2-1-2-2-2-2-4-4-2-2--
A-2-2-2-2-2-2-3-2-3-3-3-3-5-5-3-3--
E-2-2-2-2-2-2-3-2-3-3-3-3-5-5-3-3--
  pm pm pm pm pm pm pm pm pm pm pm

E-----------------------------------
H----------------------------------
G----------------------------------
D-1-1-1-1-1-1-2-1-2-2-2-2-2-2-2-2--
A-2-2-2-2-2-2-3-2-3-3-3-3-3-3-3-3--
E-2-2-2-2-2-2-3-2-3-3-3-3-3-3-3-3--
  pm pm pm pm pm pm pm pm pm pm pm


Refren
E----------------------------------------------------
H----------------------------------------------------
G----------------------------------------------------
D-2---2-2-2-4----4-4-2-2-2-2-------------------------
A-2---2-2-2-5----5-5-3-3-3-3--------------------------
D-0---0-0-0-5----5-5-3-3-3-3--------------------------


-- 07 Paź 2020, 19:43 --

Kod: Zaznacz wszystko
matarapatytaparatam

zwrotka


E---------------------------------------------------------------
H---------------------------------------------------------------
G---------------------------------------------------------------
D-----9-11-9------5-7-5--------4-5-4-------10---------7---------
A---9-----------5------------0-----------8----8-----5---5-------
D-9----------9-5---------5-0-----------8----------5-------------

E---------------------------------------------------------
H---------------------------------------------------------
G----------------------------------------------------------
D-----4---------4----------10----------12-----------------
A---0---0-----0--0-------8----8-----10----10--------------
D-0--------0----------8----------10-------------------------
Awatar użytkownika
nooken
 
Posty: 922
Rejestracja: 06 Cze 2011, 23:42
Miejscowość: Siedlce

Re: Tabulatury

Postprzez kubek1976 » 12 Paź 2020, 20:45

Dobra robota ! Popraw tylko na czworakach bo tam jest drop D
Chodź zrobimy sobie przerwę ....
078|231|278|327|329|343|360|372|385|399|402|404|412|420|424|429|431|446|458|470|472|474|477|487|493|500|510|531|548|557|568|574|585|587|596|...
Awatar użytkownika
kubek1976
 
Posty: 1125
Rejestracja: 18 Mar 2015, 13:41
Miejscowość: Sto-Litza

Re: Tabulatury

Postprzez nooken » 12 Paź 2020, 22:45

Ok, dzięki za zwrócenie uwagi, na dniach wrzucę jeszcze bonedze i instrumentalnie
Awatar użytkownika
nooken
 
Posty: 922
Rejestracja: 06 Cze 2011, 23:42
Miejscowość: Siedlce

Re: Tabulatury

Postprzez Smok » 13 Paź 2020, 15:13

Nooken - refren Celu jest chyba także w E standard, a nie w dropped D... - chyba, że podczas grania zmieniają strój ;)
Więc dokąd, dokąd ta wędrówka
Posmutniał król i zadął w róg
Przeciwnik straszy, pielgrzym idzie
A pyta zawsze Bóg
Awatar użytkownika
Smok
 
Posty: 5980
Rejestracja: 11 Maj 2011, 12:45
Miejscowość: Wschód

Re: Tabulatury

Postprzez Vojtii » 13 Paź 2020, 22:59

Kod: Zaznacz wszystko
Matarapatytaparatam
Tab: Vojtii
Drop D

Intro

Litza
e|----------------|----------------|----------------|---------------|
H|----------------|----------------|----------------|---------------|
G|----------------|----------------|----------------|---------------|
D|----4-----------|----------------|----4-----------|---------------|
A|--0-------------|----------------|--0-------------|---------------|
D|0---------------|----------------|0---------------|---------------|

Drężmak
e|----------------|----------------|----------------|---------------|
H|----------------|----------------|----------------|---------------|
G|----------------|----------------|----------------|---------------|
D|----------------|----------------|----------------|---------------|
A|9-9-9-9-9-9-9-10|9-9-9-9-9-9-9-10|9-9-9-9-9-9-9-10|8-8-8-8-5-5-5-5|
D|----------------|----------------|----------------|---------------|

Verse

Litza
e|----------------|----------------|----------------|---------------|
H|----------------|----------------|----------------|---------------|
G|----------------|----------------|----------------|---------------|
D|----9-11---9----|----5-7---5-----|----4-5---4-----|----10-------7-|
A|--9-----------9-|--5-----------5-|--0---------5---|--8--------5---|
D|9---------------|5---------------|0---------------|8--------5-----|


Drężmak
e|----------------|----------------|----------------|---------------|
H|----------------|----------------|----------------|---------------|
G|----------------|----------------|----------------|---------------|
D|----------------|----------------|----------------|---------------|
A|9-9-9-9-9-9-9-10|9-9-9-9-9-9-9-10|9-9-9-9-9-9-9-10|8-8-8-8-5-5-5-5|
D|----------------|----------------|----------------|---------------|

Chorus

Litza
e|----------------|----------------|
H|----------------|----------------|
G|----------------|----------------|
D|----4---4-------|----10-----12---|
A|--0---0---0---0-|--8---8--10-----|
D|0-----------0---|8------10-------|

Drężmak
e|------------------------|----------------|
H|------------------------|----------------|
G|------------------------|----------------|
D|------------------------|----------------|
A|12-12-12-12-12-12-12-12-|8-8-8-7-7-7-5---|
D|------------------------|----------------|

Pause

Litza
e|----------------|
H|----------------|
G|----------------|
D|----------------|
A|----------------|
D|9---------------|

Drężmak
e|----------------|
H|----------------|
G|----------------|
D|----------------|
A|12--------------|
D|----------------|

End

Litza
e|----------------|
H|----------------|
G|----------------|
D|----------4-----|
A|--0-------------|
D|0---------------|

Drężmak
e|----------------|
H|----------------|
G|----------------|
D|----------------|
A|9---------------|
D|----------------|
"Nie mam blizn po kajdankach, napletek posiadam,
Na świat przyszedłem w czepku, nie pod ułańskim czakiem.
Po dekadzie wygnania - polskim jeszcze władam,
Proszę więc o dokument, że jestem Polakiem!"
Awatar użytkownika
Vojtii
 
Posty: 75
Rejestracja: 22 Sty 2018, 13:21
Miejscowość: Warszawa / Warschau / Варшава

Re: Tabulatury

Postprzez nooken » 14 Paź 2020, 18:06

Smok napisał(a):Nooken - refren Celu jest chyba także w E standard, a nie w dropped D... - chyba, że podczas grania zmieniają strój ;)

Ech zgadza sie tylko za dużo na raz rzeczy musialem rozpisać i widocznie nie wszędzie zmieniłem :/

-- 14 Paź 2020, 18:06 --

Kod: Zaznacz wszystko
intrumentalnie


intro
E-----------------------------------
H-----------------------------------
G-----------------------------------
D------------------------0----------
A----------------------5---5--------
E--8---6-8---6-8---6-8--------------


zwrotka
E-------------------------------------------------------------------------------
H-------------------------------------------------------------------------------
G-------------------------------------------------------------------------------
D-------------------------------------------------------------------------------
A-------------------------------------------------------------------------------
E--15-0-0-15-0-0-0-0-15-0-0-15-0-0-0-0-15-0-0-15-0-0-0-0-0-12-11-12-14-12-11-12-

Refren
E----------------------------------------------------
H----------------------------------------------------
G----------------------------------------------------
D-2--------------------------------------------------
A-2--------------------------------------------------
E-0--------------------------------------------------

outr
E-------------------------------------------
H-------------------------------------------
G-------------------------------------------
D--------------------------------0----------
A-----------------------------18---18--------
E--20---18-20---18-20---18-20----------------
Awatar użytkownika
nooken
 
Posty: 922
Rejestracja: 06 Cze 2011, 23:42
Miejscowość: Siedlce

Re: Tabulatury

Postprzez wenseboro96 » 15 Paź 2020, 09:28

Nooken, w "Celu" brakuje u Ciebie pustej struny "E" w melodii a intro, która jest grana w niektórych momentach pomiędzy dźwiękami. Z kolei w refrenie "Na czworakach" chyba nie są grane powerchordy, ale pojedyńce dźwięki dodatkowo wzmocnione przez ten efekt gitarowy(H9?). W Zwrotce w "Instrumentalnie" dobrze rozpisałeś dźwięki na strunie "E", ale tam chłopaki trzymają jeszcze 13 próg na strunie "A"
Awatar użytkownika
wenseboro96
 
Posty: 72
Rejestracja: 12 Paź 2014, 19:58

Re: Tabulatury

Postprzez nooken » 16 Paź 2020, 16:45

Kod: Zaznacz wszystko
Bonedza

Intro

E---------------------------------------------------------------
H---------------------------------------------------------------
G---------------------------------------------------------------
D---------------------------------------------------------------
A--5---------------5--------------------------------------------
D-----0-5-0-5-7-------0-5-0-5-7---------------------------------

intro/refren
E------------------------------------------------------------------------
H------------------------------------------------------------------------
G------------------------------------------------------------------------
D--7---------------7---------------10------------------10----------------
A--5--0-5-0-5------5--0-5-0-5-7----8--0-10-0-10-12-----8--0-10-0-10-12---
D-----0-5-0-5-7-------0-5-0-5-7-------0-10-0-10-12--------0-10-0-10-12---


E------------------
H------------------
G------------------
D------------------
A-5-5-5-5-5-5-5-5--
D-5-5-5-5-5-5-5-5--

przedzwrocie
E----------------------------------------
H----------------------------------------
G----------------------------------------
D--4------------------4------------------
A--2--0-2-0-5-3-0-3---2--0-2-0-5-3-0-3---
D-----0-2-0-5-3-0-3------0-2-0-5-3-0-3---

E----------------------------------------
H----------------------------------------
G----------------------------------------
D--4------------------4------------------
A--2------------------2------------------
D-----0-2-0-2-3----------0-2-0-2-3-------

zwrotka
E----------------------------------------
H----------------------------------------
G----------------------------------------
D----------------------------------------
A--2------------------2------------------
D-----0-2-0-5-3-0-3------0-2-0-5-3-0-3---

ooo ooo ooo
E--------------------------------------------------------------------------
H--------------------------------------------------------------------------
G--------------------------------------------------------------------------
D--------------------------------------------------------------------------
A-10-10-10-10-10-10-10-10-1-1-1-1-1-1-1-1-3-3-3-3-3-3-3-3-5-5-5-5-5-5-5-5-5-5-5--
D-10-10-10-10-10-10-10-10-1-1-1-1-1-1-1-1-3-3-3-3-3-3-3-3-5-5-5-5-5-5-5-5-5-5-5-


E-------------------------------------------------------------------------------
H-------------------------------------------------------------------------------
G--5--8--10-12------5--8--10-12/14/12------3--6--8--10-----12-12-12-12-8-8-7-7--
D-------------------------------------------------------------------------------
A--3--6--8--10------3--6--8--10/12/10------3--6--8--10-----10-10-10-10-6-6-5-5--
D------------------------------------------------------------------------------
Awatar użytkownika
nooken
 
Posty: 922
Rejestracja: 06 Cze 2011, 23:42
Miejscowość: Siedlce

PoprzedniaNastępna

Wróć do Zespół

Kto jest na forum

Użytkownicy przeglądający to forum: Brak zarejestrowanych użytkowników oraz 2 gości

cron