Tabulatury

Moderator: Kred

Re: Tabulatury

Postprzez Wichura » 21 Paź 2020, 03:02

Nie wiem jak zrobić te zielone obramowanie, gdyż jest to mój pierwszy tab pisany (normalnie robie w guitar pro),więc może być coś nie tak. Niemniej jednak podrzucam to, co udało mi się wychwycić i wypatrzeć z coveru na yt Hołdu
Kod: Zaznacz wszystko
Intro na kobzach (x4)
E---------------------------------------------------------------
H--------10---8---10------------------------------------------
G----7-------------------7-------------------------------------
D---------------------------------------------------------------
A---------------------------------------------------------------
D---------------------------------------------------------------
Główny riff
E---------------------------------------------------------------
H---------------------------------------------------------------
G---------------------------------------------------------------
D---------------------------------------------------------------
A----------------------------10-12-12-12-12-----------------
D---10-12-12-12-12------------------------------------------
      pm pm pm pm pm
E---------------------------------------------------------------
H---------------------------------------------------------------
G---------------------------------------------------------------
D---------------------------------------------------------------
A---8-10-10-10-10------10-12-12-12-12-------------------
D---------------------------------------------------------------

E---------------------------------------------------------------
H---------------------------------------------------------------
G---------------------------------------------------------------
D---------------------------------------------------------------
A----------------------------10-12-12-12-12-----------------
D---10-12-12-12-12------------------------------------------
      pm pm pm pm pm
E---------------------------------------------------------------
H---------------------------------------------------------------
G---------------------------------------------------------------
D---------------------------------------------------------------
A---8-10-10-10-10------7-8-8-8-8--------------------------
D---------------------------------------------------------------

Zwrotka
E---------------------------------------------------------------
H---------------------------------------------------------------
G---------------------------------------------------------------
D---------------------------------------------------------------
A---10-12-12-12-12---------------10-12-12-12-8----------
D---10-12-12-12-12---------------10-12-12-12-8----------
pm pm pm pm pm pm             pm pm pm pm pm

E---------------------------------------------------------------
H---------------------------------------------------------------
G---------------------------------------------------------------
D---------------------------------------------------------------
A---10-10-7-8-8-8----7-8-8-8-8----------------------------
D---10-10-7-8-8-8----7-8-8-8-8----------------------------

E---------------------------------------------------------------
H---------------------------------------------------------------
G---------------------------------------------------------------
D----------------------------------------------------------------
A---7-8-8-8-8--8-10-10-10-10-------------------------------
D---7-8-8-8-8--8-10-10-10-10-------------------------------

Bridge

E---------------------------------------------------------------
H---------------------------------------------------------------
G---------------------------------------------------------------
D-- 0-0-0-0-0-0----10-10-10--------------------------------
A---0-0-0-0-0-0----12-12-12--------------------------------
D---0-0-0-0-0-0----12-12-12--------------------------------
pm pm pm pm pm pm
E---------------------------------------------------------------
H---------------------------------------------------------------
G---------------------------------------------------------------
D----------------------------------------------------------------
A----------------------------------------------------------------
D---11----11------------6----6---------------------------------

Bridge z Deepem (czyli ten motyw podobny do Od zera) (x2)

E---------------------------------------------------------------
H---------------------------------------------------------------
G-10-9---------------------------------------------------------
D--8--8-10-12-------------------------------------------------
A--8--8--8--8-----------10-12-12-12----7-8-8-8-8---------
D--8--8--8--8-----------10-12-12-12----7-8-8-8-8---------
Ostatnio edytowany przez Wichura, 21 Paź 2020, 03:41, edytowano w sumie 1 raz
Wichura
 
Posty: 149
Rejestracja: 24 Lip 2013, 23:50

Re: Tabulatury

Postprzez Kred » 21 Paź 2020, 03:29

Wichura napisał(a):Nie wiem jak zrobić te zielone obramowanie


Całą tabulaturę musisz wkleić między "code" i "/code".
Odpowiednio wyrównując szczegóły.
Na dobranoc dałam Klarze buziaka w czoło i powiedziałam, że to od Ciebie. Tak słodko przymrużyła oczy, uśmiechnęła się i wtuliła mocno... Taki spokój nagle zagościł na jej twarzy...
Awatar użytkownika
Kred
 
Posty: 44221
Rejestracja: 14 Maj 2011, 02:38
Miejscowość: Poznań

Re: Tabulatury

Postprzez Wichura » 21 Paź 2020, 15:09

Faktycznie, dzięki :D Lipa, że nie mogę już edytować swojego postu, więc daje poprawioną wersję poniżej. A tamtą siły wyższe mogą skasować :D

Kod: Zaznacz wszystko
Intro na kobzach (x4)
E---------------------------------------------------------------
H--------10---8---10------------------------------------------
G----7-------------------7-------------------------------------
D---------------------------------------------------------------
A---------------------------------------------------------------
D---------------------------------------------------------------
Główny riff
E---------------------------------------------------------------
H---------------------------------------------------------------
G---------------------------------------------------------------
D---------------------------------------------------------------
A----------------------------10-12-12-12-12-----------------
D---10-12-12-12-12------------------------------------------
pm pm pm pm pm
E---------------------------------------------------------------
H---------------------------------------------------------------
G---------------------------------------------------------------
D---------------------------------------------------------------
A---8-10-10-10-10------10-12-12-12-12-------------------
D---------------------------------------------------------------

E---------------------------------------------------------------
H---------------------------------------------------------------
G---------------------------------------------------------------
D---------------------------------------------------------------
A----------------------------10-12-12-12-12-----------------
D---10-12-12-12-12------------------------------------------
pm pm pm pm pm
E---------------------------------------------------------------
H---------------------------------------------------------------
G---------------------------------------------------------------
D---------------------------------------------------------------
A---8-10-10-10-10------7-8-8-8-8--------------------------
D---------------------------------------------------------------

Zwrotka
E---------------------------------------------------------------
H---------------------------------------------------------------
G---------------------------------------------------------------
D---------------------------------------------------------------
A---10-12-12-12-12---------------10-12-12-12-8----------
D---10-12-12-12-12---------------10-12-12-12-8----------
pm pm pm pm pm pm pm pm pm pm pm

E---------------------------------------------------------------
H---------------------------------------------------------------
G---------------------------------------------------------------
D---------------------------------------------------------------
A---10-10-7-8-8-8----7-8-8-8-8----------------------------
D---10-10-7-8-8-8----7-8-8-8-8----------------------------

E---------------------------------------------------------------
H---------------------------------------------------------------
G---------------------------------------------------------------
D----------------------------------------------------------------
A---7-8-8-8-8--8-10-10-10-10-------------------------------
D---7-8-8-8-8--8-10-10-10-10-------------------------------

Bridge

E---------------------------------------------------------------
H---------------------------------------------------------------
G---------------------------------------------------------------
D-- 0-0-0-0-0-0----10-10-10--------------------------------
A---0-0-0-0-0-0----12-12-12--------------------------------
D---0-0-0-0-0-0----12-12-12--------------------------------
pm pm pm pm pm pm
E---------------------------------------------------------------
H---------------------------------------------------------------
G---------------------------------------------------------------
D----------------------------------------------------------------
A----------------------------------------------------------------
D---11----11------------6----6---------------------------------

Bridge z Deepem (czyli ten motyw podobny do Od zera) (x2)

E---------------------------------------------------------------
H---------------------------------------------------------------
G-10-9---------------------------------------------------------
D--8--8-10-12-------------------------------------------------
A--8--8--8--8-----------10-12-12-12----7-8-8-8-8---------
D--8--8--8--8-----------10-12-12-12----7-8-8-8-8---------
Wichura
 
Posty: 149
Rejestracja: 24 Lip 2013, 23:50

Re: Tabulatury

Postprzez Jaahquubel » 21 Paź 2020, 15:14

Przesunąłem „[/code]”.
Wypisz, wymaluj, Wujek Dobra Rada.
085 | 135 | 188 | 360 | 574

Leguramin „Najlepszej dziesiątki”

Wstawianie filmów:
Kod: Zaznacz wszystko
[youtube]http://www.youtube.com/watch?v=TpNc6uh0jbk[/youtube]

Awatar użytkownika
Jaahquubel
 
Posty: 6930
Rejestracja: 18 Lut 2012, 22:08
Miejscowość: Varrez, Tracona

Re: Tabulatury

Postprzez Kred » 21 Paź 2020, 15:43

Tylko się zastanawiałem, czy te palm mjuty się zgadzają lokalizacyjnie...?
Na dobranoc dałam Klarze buziaka w czoło i powiedziałam, że to od Ciebie. Tak słodko przymrużyła oczy, uśmiechnęła się i wtuliła mocno... Taki spokój nagle zagościł na jej twarzy...
Awatar użytkownika
Kred
 
Posty: 44221
Rejestracja: 14 Maj 2011, 02:38
Miejscowość: Poznań

Re: Tabulatury

Postprzez Wichura » 21 Paź 2020, 21:27

Może spacja jest nie do końca tam, gdzie powinna, ale to jest tak zapisane orientacyjnie, że 5 palm mute na 5 dźwięków rozpoczynających takt. Mówię w Guitar Pro dużo łatwiej mógłbym to rozpisać, ale nie wiem, czy ktoś tu korzysta z GP i się to by przydało.
Wichura
 
Posty: 149
Rejestracja: 24 Lip 2013, 23:50

Re: Tabulatury

Postprzez MatiGuitar » 21 Paź 2020, 23:09

Jeśli masz taby w Guitar Pro to śmiało tu udostępnij! :)
MatiGuitar
 
Posty: 9
Rejestracja: 02 Kwi 2014, 16:01

Poprzednia

Wróć do Zespół

Kto jest na forum

Użytkownicy przeglądający to forum: Brak zarejestrowanych użytkowników oraz 1 gość

cron